PanterA : FBD

I'M BROKEN

by Phil Coval - http://rzr.online.fr/#
[INTRO]
          RiffA
4 |----------------------|X|
5 |3h5--3h5--3p0---------|X|
6 |---------------5p3p0--|X|

   Riff B
3 |--A---------------|-A-----------5-|-A---------------|-A----------|
4 |-- ---------3h5p3-|- -------5p7---|- ---------3h5p3-|- --------x-|
5 |-- ----3h5p3------|- -3h5p3-------|- ---3h5p3-------|- 0-0-0-0-x-|
6 |-- ---------------|- -------------|- ---------------|- 0-0-0-0-x-|


[VERSE-1] {AA EE} x8  ; {AA EE} x4 ; {AA EE} x4

3 |--------------[x8]-----------------|----------------[x8|
4 |-----------------|-----------------|--11--11-----------|
5 |--5--5-----0--x--|--------------5--|--11--11-----0--x--|
6 |--5'-5'----0--x--|-3/(7)-5-6-7-----|--11'-11'----0--x--|


I wonder ?      if we'll smile  in our          coffins ,while
loved ones      Mourn the day   the absence     of our faces
living          laughing        Eyes            awake .
Is this         too much,       for them        to take?

yahrr

(Too young for ones) conclusion,        the lifestyle won.
                Such values             you taught your son. 


[PRE-CHORUS]

6 |-0-5-6-5--3-0--2-3-2-1-0-| x8
That's how.(That's how).
Look at me now.

Riff B

I'm broken.     Inherit my life.         I'm broken.

[VERSE 2]

One day         we all will die a cliched       fact of life.
Force fed       To make us heed Inbred to       sponge our bleed.
Every           Warning,        a leaking       rubber,
a poison        apple           for mingled     Blood.


   Too young for ones delusion the lifestyle cost
   Venereal Mother embrace the los$.

[PRE-CHORUS]   That's how            Look at you now.

[CHORUS]        You're broken   Inherit your life.      You're broken

[BREAK]
5 |------------------------------5~-|
6 |-0-0--0-0--0-0---3/(7)-5-6-7-----|

[PRE-CHORUS]

[SOLO] w/ Bass

[CHORUS]

[PRE CHORUS]

[CHORUS]

[BREAK]


Credits :

Note!! This uses dropped D tuning - ie, low to hi: D A D G B E.

This tablature is well formated (in HTML) at : http://www.mygale.org/~rzr/guitar


Tim Wenas's Version
Intro                  After intro <g>
----------------------|--------------------------------------|-----------------
----------------------|--------------------------------------|-----------------
----------------------|--------------------------------------|-----------------
----------------------|-------------------------------3h5p3--|-----------------
3h5--3h5--3p0---------|--3h5--3h5--3p0---------3h5p3---------|--3h5--3h5--3----
---------------5p3p0--|-----------------5p3p0----------------|-----------------


                           Verse             Bridge               Verse
--------------------------|-----------------|--------------------|-------------
--------------------------|-----------------|--------------------|-------------
-----------------------5--|-----------------|--------------------|-------------
------------------5p7-----|--5--5-----0--0--|--------------------|--11--11-----
p0---------3h5p3----------|--5--5-----0--0--|--0--------0--6--4--|--11--11-----
----5p3p0-----------------|--5--5-----0--0--|-----5--3-----------|--11--11-----


          Chorus/Bridge? (also bassline under solo.)
---------|--------------------------------|------------------------------------
---------|--------------------------------|------------------------------------
---------|--------------------------------|------------------------------------
---0--0--|--------------------------------|------------------------------------
---0--0--|--------------------------------|------------------------------------
---0--0--|--5--6--5--3--2-----2--3--2--1--|------------------------------------


This tablature is well formated (in HTML) at : http://www.mygale.org/~rzr/guitar
Design : Phil "RzR" Coval : http://rzr.online.fr/#